Jump to content


Photo

Official Lights Sheet Music/Tab/Chords Thread!


This topic has been archived. This means that you cannot reply to this topic.
73 replies to this topic

#1 vince

vince

    n00b

  • Members
  • Pip
  • 5 posts

Posted 10 November 2009 - 06:30 PM

Sorry if there already is one, but I have none and I'm really looking for Pretend sheet music (because I'm to lazy to figure it out). Hopefully, this will help others too and stop a full fledged spam for requests?

#2 SarahDotCom

SarahDotCom

    Viking

  • Members
  • PipPipPipPip
  • 183 posts

Posted 10 November 2009 - 07:02 PM

This was posted in another thread... I cant find it though but i bookmarked the site!

http://krypton.dyndn...e_Listening.pdf

#3 vince

vince

    n00b

  • Members
  • Pip
  • 5 posts

Posted 10 November 2009 - 10:56 PM

This was posted in another thread... I cant find it though but i bookmarked the site!

http://krypton.dyndn...e_Listening.pdf


knew that would happen... i don't know how to delete the thread though.

#4 Guest_     _*

Guest_     _*
  • Guests

Posted 12 November 2009 - 12:23 PM

Oh wait, you found that? Whoops. Guess I'm not really keeping my secrets very well. :P

Shameless plug / explanation: That link leads to a copy of some sheet music I'm trying to put together on my spare time. As you can tell, it really isn't very complete. My computer grabs a copy of my work every morning and makes that .PDF, so it should be reasonably up-to-date. That's why the link changes every blue moon or so. Perhaps I'll get more of it done someday, but I'm currently working on other things like school and learning Elvish at the moment. In the mean time, you'll find Pretend in its entirety in this thread if you want something that's a bit more polished.

Does anyone else have sheet music / tabs? I know there are some chords to the Ska acoustic version of Ice posted by sanxteasley from Lights' performance in her second(?) ustream chat, but I'm not aware of any other sheet music or chords anywhere.

It would be awesome if all the forum peeps could put together some giant wonderful collection of Lights' music and send it to her. On second thought, she probably wouldn't find it very useful, given that she already knows most of the notes herself. Or maybe if Lights published an official version of her sheet music. Yeah.

#5 Mike

Mike

    Captain

  • Supermod
  • 879 posts

Posted 12 November 2009 - 05:01 PM

Drive My Soul
http://www.ultimate-...ul_ver3_crd.htm

The Listening
http://www.ultimate-...stening_crd.htm

By moi. :) Rate 'em if you please!
Posted Image

#6 Guest_     _*

Guest_     _*
  • Guests

Posted 13 November 2009 - 12:35 AM

Wait, seriously? Awesome! I wish I knew how to play Guitar.

#7 Guest_Mikey Hamburger_*

Guest_Mikey Hamburger_*
  • Guests

Posted 28 November 2009 - 02:37 AM

Could someone get me sheet music [like for the keyboard] for Ice? I'm really hoping to learn it by Winter 2010 for my schools Winter Talent Show (:



#8 TheLumbot

TheLumbot

    n00b

  • Members
  • Pip
  • 8 posts

Posted 01 December 2009 - 11:27 PM

anyone have keyboard sheet music? for Ice? or The Listening?

#9 5MinuteHero

5MinuteHero

    Viking

  • Members
  • PipPipPipPip
  • 252 posts

Posted 02 December 2009 - 03:25 AM

ya id like keyboard tabs or sheet music for Lions! or Ice, or any song really :P but those the most

#10 Pham91

Pham91

    Titan

  • Members
  • PipPipPipPip
  • 1,169 posts

Posted 02 December 2009 - 10:36 AM

http://thapianoplaya.blogspot.com/

ask that guy, if he gets enough people asking for it he probably will

#11 Guest_     _*

Guest_     _*
  • Guests

Posted 03 December 2009 - 01:20 PM

Wow! Thanks for telling us about this "thapianoplaya" guy, Pham91. He seems really cool.

two things real quick, then I promise I'll be out of your hair: edit: LOL FIXED http://lights.sneaky...e_Listening.pdf ( ^ _ ^ )-b

second: Sorry I haven't made any sheet music lately. Perhaps when Christmas break rolls around, I'll work on Ice or Lions or something, but I can't promise anything. I'm a bad piano music engraver and whenever I write something down everything always sounds wrong and different than how Lights intended. Pretend was easy because she played all the chords *for* me and I didn't have to figure it out myself. Maybe someday I'll learn how all the theory works and then I'll make something I'm comfortable with releasing; but right now, my sheet music's quality makes it hard to understand, hard to play, and hard on your ears.

#12 blam2

blam2

    n00b

  • Members
  • Pip
  • 1 posts

Posted 14 December 2009 - 11:52 PM

Does anybody know the guitar chords for Ustream version of February air that she played just about a month ago on the 1st of november. Everything else I've been finding sounds just a liiiitle bit different.

#13 Guest_winston-151_*

Guest_winston-151_*
  • Guests

Posted 03 January 2010 - 02:35 PM

Hey I was wondering if anyone figured out the guitar tab for "The Pity Scene"? like Jian Ghomeshi, i love this song =]

#14 Broken Guitar 89

Broken Guitar 89

    Ninja

  • Members
  • PipPipPip
  • 61 posts

Posted 04 January 2010 - 10:50 PM

Hey I was wondering if anyone figured out the guitar tab for "The Pity Scene"? like Jian Ghomeshi, i love this song =]

I love The Pity Scene! I would pay $50 on itunes for a recording =)

As for how the song goes...I'm not sure if this is perfect(its my first tab) but the finger picking sounds like this:

The Pity Scene =D

 
E||------|------|------|----------------------------------|---------------------------------|
B||------|------|------|----------0---------------0-------|----------5--------------3-------|
G||------|------|------|------7-----7---------9-----9-----|------0-----0----------0---0-----|
D||------|------|------|----5---5-----5-5-7-7---7-----7---|----4---4-----4------2-------2---|
A||------|------|------|--7-------------7/9-------------9-|--5-------------5-3------------3-|
E||------|------|------|----------------------------------|---------------------------------|



----------------------------------|----------------------------------|
----------0---------------0-------|----------5---------------5-------|
------7-----7---------9-----9-----|------0-----0---------0-----0-----|
----5---5-----5-5-7-7---7-----7---|----4---4-----4-----4---4-----4---|
--7-------------7/9-------------9-|--5-------------5-5-------------5-|
----------------------------------|----------------------------------|



--------------------------------|--------------------------------|---|---||
---------3--------------3-------|----------5-------3---3-------0-|---|---||
-------0---0----------0---0-----|------0-----0-----0---------5---|---|---||
-----2-------2------2-------2---|----4---4-----4---2-------4-----|---|---||
--3------------3-3------------3/|--5-------------5-3-----5-------|---|---||
--------------------------------|--------------------------------|---|---||


Hope this helps!
BT

#15 Guest_winston-151_*

Guest_winston-151_*
  • Guests

Posted 07 January 2010 - 12:41 PM

Thanks so much! I'm surprised this request hadn't come up already, it's this very song that won me over to Lights!

I love The Pity Scene! I would pay $50 on itunes for a recording =)

As for how the song goes...I'm not sure if this is perfect(its my first tab) but the finger picking sounds like this:

The Pity Scene =D

 
E||------|------|------|----------------------------------|---------------------------------|
B||------|------|------|----------0---------------0-------|----------5--------------3-------|
G||------|------|------|------7-----7---------9-----9-----|------0-----0----------0---0-----|
D||------|------|------|----5---5-----5-5-7-7---7-----7---|----4---4-----4------2-------2---|
A||------|------|------|--7-------------7/9-------------9-|--5-------------5-3------------3-|
E||------|------|------|----------------------------------|---------------------------------|



----------------------------------|----------------------------------|
----------0---------------0-------|----------5---------------5-------|
------7-----7---------9-----9-----|------0-----0---------0-----0-----|
----5---5-----5-5-7-7---7-----7---|----4---4-----4-----4---4-----4---|
--7-------------7/9-------------9-|--5-------------5-5-------------5-|
----------------------------------|----------------------------------|



--------------------------------|--------------------------------|---|---||
---------3--------------3-------|----------5-------3---3-------0-|---|---||
-------0---0----------0---0-----|------0-----0-----0---------5---|---|---||
-----2-------2------2-------2---|----4---4-----4---2-------4-----|---|---||
--3------------3-3------------3/|--5-------------5-3-----5-------|---|---||
--------------------------------|--------------------------------|---|---||


Hope this helps!
BT



#16 NathanH

NathanH

    Dungeon Master

  • Members
  • PipPipPipPip
  • 581 posts

Posted 24 January 2010 - 01:03 PM

anyone have keyboard sheet music? for Ice? or The Listening?



lmao thast what im looking for too :P

i know for ice the begging part
is

C C G E
C C G E
D D A F
G G D B
D D A F
D D A F
G G B G C G D G C
Posted Image
No Weapon Can Sever The Soul From Me
Instagram: NathanH74

#17 Guest_Ryan R_*

Guest_Ryan R_*
  • Guests

Posted 24 January 2010 - 07:59 PM

I WOULD LOVE TO LEARN "Quiet" on keyboard and the chords of "Ice".

#18 MattAndHisKeytar

MattAndHisKeytar

    Ninja

  • Members
  • PipPipPip
  • 142 posts

Posted 24 January 2010 - 09:03 PM

By the way, if there aren't Second Go chords, I have em. I've always played it on piano, and just sort of converted it to guitar.
So hereeee.

Standard Tuning

Intro
Am G Dm C

Verse
Am G Dm C x3
Dm Dm Em Em

PreChorus
F G Em F

Chorus
Am F C G
Am F C Em
Am F G Em
Am F G G

Verse
Prechorus
Chorus

Bridge
C G Am Em F
Am G Am Em F G

Chorus

#19 5MinuteHero

5MinuteHero

    Viking

  • Members
  • PipPipPipPip
  • 252 posts

Posted 25 January 2010 - 12:30 AM

By the way, if there aren't Second Go chords, I have em. I've always played it on piano, and just sort of converted it to guitar.
So hereeee.

Standard Tuning

Intro
Am G Dm C

Verse
Am G Dm C x3
Dm Dm Em Em

PreChorus
F G Em F

Chorus
Am F C G
Am F C Em
Am F G Em
Am F G G

Verse
Prechorus
Chorus

Bridge
C G Am Em F
Am G Am Em F G

Chorus


Mind posting the piano/keyboard version as well? if the notes are different or not

#20 MattAndHisKeytar

MattAndHisKeytar

    Ninja

  • Members
  • PipPipPip
  • 142 posts

Posted 25 January 2010 - 10:24 AM

The chords I posted are actually the same chords on piano, that's how I knew what they were on guitar.. I don't have sheet music or anything for the piano, but I just know that those chords are used for guitar standard tuning as well as piano.